  0
SECTION
  2
HEADER
  9
$ACADVER
  1
AC1006
  9
$EXTMIN
 10
0.000000
 20
0.000000
 30
0.000000
  9
$EXTMAX
 10
220.000000
 20
204.000000
 30
0.000000
  0
ENDSEC
  0
SECTION
  2
ENTITIES
  0
POLYLINE
  8
0
 66
1
 70
1
  0
VERTEX
  8
0
 10
5.000000
 20
100.500000
 42
0.000000
  0
VERTEX
  8
0
 10
5.000000
 20
3.000000
 42
0.000000
  0
VERTEX
  8
0
 10
110.500000
 20
3.000000
 42
0.000000
  0
VERTEX
  8
0
 10
216.000000
 20
3.000000
 42
0.000000
  0
VERTEX
  8
0
 10
216.000000
 20
100.500000
 42
0.000000
  0
VERTEX
  8
0
 10
216.000000
 20
198.000000
 42
0.000000
  0
VERTEX
  8
0
 10
110.500000
 20
198.000000
 42
0.000000
  0
VERTEX
  8
0
 10
5.000000
 20
198.000000
 42
0.000000
  0
SEQEND
  0
POLYLINE
  8
0
 66
1
 70
1
  0
VERTEX
  8
0
 10
215.000000
 20
100.500000
 42
0.000000
  0
VERTEX
  8
0
 10
215.000000
 20
4.000000
 42
0.000000
  0
VERTEX
  8
0
 10
110.500000
 20
4.000000
 42
0.000000
  0
VERTEX
  8
0
 10
6.000000
 20
4.000000
 42
0.000000
  0
VERTEX
  8
0
 10
6.000000
 20
100.500000
 42
0.000000
  0
VERTEX
  8
0
 10
6.000000
 20
197.000000
 42
0.000000
  0
VERTEX
  8
0
 10
110.500000
 20
197.000000
 42
0.000000
  0
VERTEX
  8
0
 10
215.000000
 20
197.000000
 42
0.000000
  0
SEQEND
  0
POLYLINE
  8
0
 66
1
 70
1
  0
VERTEX
  8
0
 10
38.445926
 20
169.557816
 42
0.081769
  0
VERTEX
  8
0
 10
37.324841
 20
167.026106
 42
0.127165
  0
VERTEX
  8
0
 10
37.323136
 20
164.651633
 42
0.123655
  0
VERTEX
  8
0
 10
38.478975
 20
162.527383
 42
0.074909
  0
VERTEX
  8
0
 10
40.722639
 20
160.724565
 42
0.065420
  0
VERTEX
  8
0
 10
43.474752
 20
159.571719
 42
0.128410
  0
VERTEX
  8
0
 10
45.832736
 20
159.546693
 42
0.135840
  0
VERTEX
  8
0
 10
47.814064
 20
160.667581
 42
0.077324
  0
VERTEX
  8
0
 10
49.450907
 20
162.905064
 42
0.032355
  0
VERTEX
  8
0
 10
50.176945
 20
164.563893
 42
0.108265
  0
VERTEX
  8
0
 10
50.332531
 20
165.734068
 42
0.094619
  0
VERTEX
  8
0
 10
49.993465
 20
166.948885
 42
0.021384
  0
VERTEX
  8
0
 10
48.954638
 20
168.834195
 42
0.112829
  0
VERTEX
  8
0
 10
46.670149
 20
171.185018
 42
0.127242
  0
VERTEX
  8
0
 10
43.688685
 20
172.179253
 42
0.134206
  0
VERTEX
  8
0
 10
40.719164
 20
171.583274
 42
0.132230
  0
SEQEND
  0
POLYLINE
  8
0
 66
1
 70
1
  0
VERTEX
  8
0
 10
48.353312
 20
168.295203
 42
-0.093498
  0
VERTEX
  8
0
 10
49.076152
 20
165.926377
 42
-0.103783
  0
VERTEX
  8
0
 10
48.844511
 20
163.548450
 42
-0.112847
  0
VERTEX
  8
0
 10
47.713040
 20
161.611459
 42
-0.128207
  0
VERTEX
  8
0
 10
45.898222
 20
160.467697
 42
-0.143662
  0
VERTEX
  8
0
 10
43.655895
 20
160.418449
 42
-0.066651
  0
VERTEX
  8
0
 10
40.944472
 20
161.553711
 42
-0.068436
  0
VERTEX
  8
0
 10
38.723835
 20
163.299629
 42
-0.194356
  0
VERTEX
  8
0
 10
38.000000
 20
165.091422
 42
-0.068033
  0
VERTEX
  8
0
 10
38.350477
 20
167.655291
 42
-0.120118
  0
VERTEX
  8
0
 10
39.389094
 20
169.508595
 42
-0.126313
  0
VERTEX
  8
0
 10
41.120754
 20
170.617576
 42
-0.079747
  0
VERTEX
  8
0
 10
43.503246
 20
171.000000
 42
-0.036493
  0
VERTEX
  8
0
 10
45.290354
 20
170.869391
 42
-0.090953
  0
VERTEX
  8
0
 10
46.526112
 20
170.449816
 42
-0.098067
  0
VERTEX
  8
0
 10
47.477008
 20
169.641986
 42
-0.047143
  0
SEQEND
  0
POLYLINE
  8
0
 66
1
 70
1
  0
VERTEX
  8
0
 10
172.654988
 20
170.171259
 42
0.067766
  0
VERTEX
  8
0
 10
172.020353
 20
169.244092
 42
0.035947
  0
VERTEX
  8
0
 10
171.486153
 20
167.955697
 42
0.034994
  0
VERTEX
  8
0
 10
171.121646
 20
166.535441
 42
0.045348
  0
VERTEX
  8
0
 10
171.000000
 20
165.196939
 42
0.045451
  0
VERTEX
  8
0
 10
171.150200
 20
163.548011
 42
0.098249
  0
VERTEX
  8
0
 10
171.617753
 20
162.369024
 42
0.092814
  0
VERTEX
  8
0
 10
172.520108
 20
161.416800
 42
0.037501
  0
VERTEX
  8
0
 10
174.049979
 20
160.474155
 42
0.066972
  0
VERTEX
  8
0
 10
176.700352
 20
159.526152
 42
0.123480
  0
VERTEX
  8
0
 10
178.974248
 20
159.607941
 42
0.128342
  0
VERTEX
  8
0
 10
180.881849
 20
160.743539
 42
0.075468
  0
VERTEX
  8
0
 10
182.450907
 20
162.905064
 42
0.187173
  0
VERTEX
  8
0
 10
182.901306
 20
167.091014
 42
0.169010
  0
VERTEX
  8
0
 10
180.440271
 20
170.705842
 42
0.175270
  0
VERTEX
  8
0
 10
176.344732
 20
171.933309
 42
0.197355
  0
SEQEND
  0
POLYLINE
  8
0
 66
1
 70
1
  0
VERTEX
  8
0
 10
181.353312
 20
168.295203
 42
-0.127469
  0
VERTEX
  8
0
 10
182.170624
 20
164.789627
 42
-0.184596
  0
VERTEX
  8
0
 10
180.975643
 20
161.879208
 42
-0.185313
  0
VERTEX
  8
0
 10
178.149009
 20
160.515027
 42
-0.128374
  0
VERTEX
  8
0
 10
174.614909
 20
161.129598
 42
-0.050586
  0
VERTEX
  8
0
 10
173.341531
 20
161.873319
 42
-0.099806
  0
VERTEX
  8
0
 10
172.553102
 20
162.733080
 42
-0.094361
  0
VERTEX
  8
0
 10
172.133417
 20
163.865110
 42
-0.041740
  0
VERTEX
  8
0
 10
172.000000
 20
165.460515
 42
-0.060355
  0
VERTEX
  8
0
 10
172.304244
 20
167.971780
 42
-0.128093
  0
VERTEX
  8
0
 10
173.229557
 20
169.682076
 42
-0.135168
  0
VERTEX
  8
0
 10
174.832173
 20
170.667658
 42
-0.070782
  0
VERTEX
  8
0
 10
177.168063
 20
171.000000
 42
-0.057380
  0
VERTEX
  8
0
 10
178.528648
 20
170.843343
 42
-0.086333
  0
VERTEX
  8
0
 10
179.625335
 20
170.377719
 42
-0.081944
  0
VERTEX
  8
0
 10
180.539214
 20
169.547829
 42
-0.046878
  0
SEQEND
  0
POLYLINE
  8
0
 66
1
 70
1
  0
VERTEX
  8
0
 10
61.949561
 20
136.393123
 42
0.000000
  0
VERTEX
  8
0
 10
56.000000
 20
123.786246
 42
0.000000
  0
VERTEX
  8
0
 10
56.000000
 20
113.929335
 42
0.000000
  0
VERTEX
  8
0
 10
56.000000
 20
104.072424
 42
0.000000
  0
VERTEX
  8
0
 10
46.250000
 20
103.745502
 42
0.000000
  0
VERTEX
  8
0
 10
36.500000
 20
103.418580
 42
0.000000
  0
VERTEX
  8
0
 10
46.250000
 20
103.209290
 42
0.000000
  0
VERTEX
  8
0
 10
56.000000
 20
103.000000
 42
0.000000
  0
VERTEX
  8
0
 10
56.000000
 20
98.637236
 42
-0.098509
  0
VERTEX
  8
0
 10
54.898011
 20
93.098198
 42
-0.028235
  0
VERTEX
  8
0
 10
51.079636
 20
85.177882
 42
-0.027947
  0
VERTEX
  8
0
 10
46.415392
 20
77.763997
 42
-0.105467
  0
VERTEX
  8
0
 10
42.398652
 20
74.072704
 42
-0.008040
  0
VERTEX
  8
0
 10
41.002579
 20
73.278981
 42
-0.010865
  0
VERTEX
  8
0
 10
39.714093
 20
72.609562
 42
-0.008073
  0
VERTEX
  8
0
 10
38.624057
 20
72.094687
 42
-0.107562
  0
VERTEX
  8
0
 10
38.192840
 20
72.002400
 42
-0.248308
  0
VERTEX
  8
0
 10
37.795545
 20
72.214433
 42
-0.004248
  0
VERTEX
  8
0
 10
36.389169
 20
74.336433
 42
-0.009723
  0
VERTEX
  8
0
 10
34.790706
 20
76.901097
 42
-0.006183
  0
VERTEX
  8
0
 10
33.025609
 20
79.944675
 42
0.005023
  0
VERTEX
  8
0
 10
31.283984
 20
82.963892
 42
0.008555
  0
VERTEX
  8
0
 10
29.760314
 20
85.446956
 42
0.003032
  0
VERTEX
  8
0
 10
28.433143
 20
87.501425
 42
0.475853
  0
VERTEX
  8
0
 10
28.192898
 20
87.526231
 42
0.321927
  0
VERTEX
  8
0
 10
28.142473
 20
87.218657
 42
0.002829
  0
VERTEX
  8
0
 10
29.266035
 20
84.985016
 42
0.008297
  0
VERTEX
  8
0
 10
30.644214
 20
82.390646
 42
0.005094
  0
VERTEX
  8
0
 10
32.349302
 20
79.378458
 42
-0.007891
  0
VERTEX
  8
0
 10
34.046917
 20
76.339956
 42
-0.012250
  0
VERTEX
  8
0
 10
35.404714
 20
73.661779
 42
-0.006529
  0
VERTEX
  8
0
 10
36.447523
 20
71.397943
 42
-0.247947
  0
VERTEX
  8
0
 10
36.410881
 20
70.855803
 42
-0.104654
  0
VERTEX
  8
0
 10
36.015670
 20
70.441752
 42
-0.005530
  0
VERTEX
  8
0
 10
34.487638
 20
69.420715
 42
-0.008507
  0
VERTEX
  8
0
 10
32.623751
 20
68.249572
 42
-0.006074
  0
VERTEX
  8
0
 10
30.500000
 20
67.000000
 42
0.006944
  0
VERTEX
  8
0
 10
28.371621
 20
65.742711
 42
0.009495
  0
VERTEX
  8
0
 10
26.493004
 20
64.547964
 42
0.006716
  0
VERTEX
  8
0
 10
24.962458
 20
63.503394
 42
0.101577
  0
VERTEX
  8
0
 10
24.523221
 20
63.037572
 42
0.268471
  0
VERTEX
  8
0
 10
24.503961
 20
62.373687
 42
0.001326
  0
VERTEX
  8
0
 10
27.831161
 20
56.257472
 42
0.005419
  0
VERTEX
  8
0
 10
31.754866
 20
49.270955
 42
0.003344
  0
VERTEX
  8
0
 10
36.513160
 20
41.135709
 42
0.000000
  0
VERTEX
  8
0
 10
49.022140
 20
20.073673
 42
0.000000
  0
VERTEX
  8
0
 10
54.761070
 20
23.534266
 42
-0.005157
  0
VERTEX
  8
0
 10
57.012457
 20
24.860392
 42
-0.007507
  0
VERTEX
  8
0
 10
59.026607
 20
25.979065
 42
-0.004145
  0
VERTEX
  8
0
 10
60.741291
 20
26.879786
 42
-0.118509
  0
VERTEX
  8
0
 10
61.223125
 20
26.997429
 42
-0.246826
  0
VERTEX
  8
0
 10
61.639088
 20
26.780651
 42
-0.004471
  0
VERTEX
  8
0
 10
63.089311
 20
24.649245
 42
-0.009976
  0
VERTEX
  8
0
 10
64.739712
 20
22.066226
 42
-0.006357
  0
VERTEX
  8
0
 10
66.560646
 20
19.000000
 42
0.004265
  0
VERTEX
  8
0
 10
68.364612
 20
15.933195
 42
0.006829
  0
VERTEX
  8
0
 10
69.962287
 20
13.350000
 42
0.002141
  0
VERTEX
  8
0
 10
71.374683
 20
11.155379
 42
0.253924
  0
VERTEX
  8
0
 10
71.660912
 20
11.000000
 42
0.566884
  0
VERTEX
  8
0
 10
71.840789
 20
11.300511
 42
0.001572
  0
VERTEX
  8
0
 10
69.120924
 20
16.336473
 42
0.006880
  0
VERTEX
  8
0
 10
66.455126
 20
21.078804
 42
0.016824
  0
VERTEX
  8
0
 10
64.329746
 20
24.472506
 42
-0.063796
  0
VERTEX
  8
0
 10
63.289807
 20
26.541549
 42
-0.220058
  0
VERTEX
  8
0
 10
63.428488
 20
27.998660
 42
-0.122122
  0
VERTEX
  8
0
 10
64.775068
 20
29.384189
 42
-0.015189
  0
VERTEX
  8
0
 10
68.435442
 20
31.510400
 42
0.014202
  0
VERTEX
  8
0
 10
70.819426
 20
32.888906
 42
0.044252
  0
VERTEX
  8
0
 10
72.304538
 20
33.997205
 42
0.082075
  0
VERTEX
  8
0
 10
73.016503
 20
34.882226
 42
0.311089
  0
VERTEX
  8
0
 10
72.956324
 20
35.552626
 42
-0.105351
  0
VERTEX
  8
0
 10
72.548277
 20
36.331089
 42
-0.010419
  0
VERTEX
  8
0
 10
72.018740
 20
38.387487
 42
-0.012776
  0
VERTEX
  8
0
 10
71.495895
 20
40.894028
 42
-0.009802
  0
VERTEX
  8
0
 10
71.048822
 20
43.655760
 42
-0.048543
  0
VERTEX
  8
0
 10
70.654318
 20
52.641340
 42
-0.055416
  0
VERTEX
  8
0
 10
72.057516
 20
61.128292
 42
-0.053079
  0
VERTEX
  8
0
 10
75.364893
 20
69.393713
 42
-0.039159
  0
VERTEX
  8
0
 10
80.645443
 20
77.724054
 42
-0.074402
  0
VERTEX
  8
0
 10
83.862796
 20
80.900622
 42
-0.022313
  0
VERTEX
  8
0
 10
89.615940
 20
84.718359
 42
-0.022638
  0
VERTEX
  8
0
 10
95.733352
 20
88.028470
 42
-0.066414
  0
VERTEX
  8
0
 10
100.274429
 20
89.523660
 42
0.000000
  0
VERTEX
  8
0
 10
104.000000
 20
90.222582
 42
0.000000
  0
VERTEX
  8
0
 10
104.000000
 20
96.611291
 42
0.000000
  0
VERTEX
  8
0
 10
104.000000
 20
103.000000
 42
0.000000
  0
VERTEX
  8
0
 10
110.500000
 20
103.000000
 42
0.000000
  0
VERTEX
  8
0
 10
117.000000
 20
103.000000
 42
0.000000
  0
VERTEX
  8
0
 10
117.000000
 20
96.689252
 42
0.000000
  0
VERTEX
  8
0
 10
117.000000
 20
90.378505
 42
0.000000
  0
VERTEX
  8
0
 10
123.250000
 20
88.517941
 42
-0.087749
  0
VERTEX
  8
0
 10
133.980178
 20
83.142949
 42
-0.080583
  0
VERTEX
  8
0
 10
142.585991
 20
74.277580
 42
-0.077818
  0
VERTEX
  8
0
 10
148.171169
 20
62.844149
 42
-0.073707
  0
VERTEX
  8
0
 10
150.132862
 20
50.031884
 42
-0.017913
  0
VERTEX
  8
0
 10
149.985690
 20
45.292106
 42
-0.024205
  0
VERTEX
  8
0
 10
149.492614
 20
41.033237
 42
-0.022011
  0
VERTEX
  8
0
 10
148.777763
 20
37.640764
 42
-0.193753
  0
VERTEX
  8
0
 10
147.886637
 20
36.429938
 42
0.167785
  0
VERTEX
  8
0
 10
147.215137
 20
35.607573
 42
0.256715
  0
VERTEX
  8
0
 10
147.349724
 20
34.718868
 42
0.089164
  0
VERTEX
  8
0
 10
148.550146
 20
33.622637
 42
0.014895
  0
VERTEX
  8
0
 10
151.250000
 20
32.031964
 42
-0.015849
  0
VERTEX
  8
0
 10
155.731824
 20
29.379876
 42
-0.208885
  0
VERTEX
  8
0
 10
156.783478
 20
27.819099
 42
-0.167136
  0
VERTEX
  8
0
 10
156.479603
 20
25.810286
 42
-0.009414
  0
VERTEX
  8
0
 10
153.415538
 20
20.203824
 42
0.005303
  0
VERTEX
  8
0
 10
151.730259
 20
17.179544
 42
0.007669
  0
VERTEX
  8
0
 10
150.310803
 20
14.469248
 42
0.004369
  0
VERTEX
  8
0
 10
149.174340
 20
12.166027
 42
0.115673
  0
VERTEX
  8
0
 10
149.025885
 20
11.500000
 42
0.736980
  0
VERTEX
  8
0
 10
149.216814
 20
11.443117
 42
0.007382
  0
VERTEX
  8
0
 10
150.367385
 20
13.217187
 42
0.009466
  0
VERTEX
  8
0
 10
151.833639
 20
15.654099
 42
0.004905
  0
VERTEX
  8
0
 10
153.577231
 20
18.750000
 42
-0.007799
  0
VERTEX
  8
0
 10
155.382237
 20
21.911997
 42
-0.012097
  0
VERTEX
  8
0
 10
157.047207
 20
24.576562
 42
-0.006409
  0
VERTEX
  8
0
 10
158.511337
 20
26.737453
 42
-0.245372
  0
VERTEX
  8
0
 10
159.014123
 20
27.000000
 42
-0.112910
  0
VERTEX
  8
0
 10
159.595024
 20
26.867127
 42
-0.005682
  0
VERTEX
  8
0
 10
161.349497
 20
25.995469
 42
-0.008878
  0
VERTEX
  8
0
 10
163.420212
 20
24.890391
 42
-0.006291
  0
VERTEX
  8
0
 10
165.705340
 20
23.580321
 42
0.000000
  0
VERTEX
  8
0
 10
171.500000
 20
20.160643
 42
0.000000
  0
VERTEX
  8
0
 10
172.753671
 20
22.526373
 42
-0.011594
  0
VERTEX
  8
0
 10
173.663405
 20
24.150891
 42
-0.000498
  0
VERTEX
  8
0
 10
177.002493
 20
29.789246
 42
-0.000851
  0
VERTEX
  8
0
 10
180.979664
 20
36.463944
 42
-0.000606
  0
VERTEX
  8
0
 10
185.457271
 20
43.928959
 42
0.000000
  0
VERTEX
  8
0
 10
196.907202
 20
62.965815
 42
0.000000
  0
VERTEX
  8
0
 10
190.036517
 20
67.047614
 42
0.000000
  0
VERTEX
  8
0
 10
183.165832
 20
71.129413
 42
0.000000
  0
VERTEX
  8
0
 10
188.065090
 20
79.612706
 42
0.004940
  0
VERTEX
  8
0
 10
189.880298
 20
82.828773
 42
0.009619
  0
VERTEX
  8
0
 10
191.253382
 20
85.436045
 42
0.007930
  0
VERTEX
  8
0
 10
192.194539
 20
87.386230
 42
0.743821
  0
VERTEX
  8
0
 10
192.039043
 20
87.524130
 42
0.109486
  0
VERTEX
  8
0
 10
191.515896
 20
87.015146
 42
0.005108
  0
VERTEX
  8
0
 10
190.173265
 20
84.924134
 42
0.008241
  0
VERTEX
  8
0
 10
188.635152
 20
82.381871
 42
0.005808
  0
VERTEX
  8
0
 10
186.986824
 20
79.476130
 42
-0.005216
  0
VERTEX
  8
0
 10
185.365608
 20
76.610288
 42
-0.008292
  0
VERTEX
  8
0
 10
183.912449
 20
74.196113
 42
-0.003100
  0
VERTEX
  8
0
 10
182.630056
 20
72.171506
 42
-0.255336
  0
VERTEX
  8
0
 10
182.316109
 20
72.000000
 42
-0.108958
  0
VERTEX
  8
0
 10
181.960720
 20
72.078376
 42
-0.005234
  0
VERTEX
  8
0
 10
180.857325
 20
72.604029
 42
-0.008347
  0
VERTEX
  8
0
 10
179.554850
 20
73.268507
 42
-0.005899
  0
VERTEX
  8
0
 10
178.113672
 20
74.056269
 42
-0.104755
  0
VERTEX
  8
0
 10
173.943723
 20
77.719369
 42
-0.034912
  0
VERTEX
  8
0
 10
169.525288
 20
84.590488
 42
-0.035248
  0
VERTEX
  8
0
 10
166.069126
 20
92.102519
 42
-0.090431
  0
VERTEX
  8
0
 10
165.000000
 20
97.965480
 42
0.000000
  0
VERTEX
  8
0
 10
165.000000
 20
102.927576
 42
0.000000
  0
VERTEX
  8
0
 10
174.750000
 20
103.254498
 42
0.000000
  0
VERTEX
  8
0
 10
184.500000
 20
103.581420
 42
0.000000
  0
VERTEX
  8
0
 10
174.750000
 20
103.790710
 42
0.000000
  0
VERTEX
  8
0
 10
165.000000
 20
104.000000
 42
0.000000
  0
VERTEX
  8
0
 10
165.016017
 20
112.750000
 42
0.016321
  0
VERTEX
  8
0
 10
164.841410
 20
118.415778
 42
0.051612
  0
VERTEX
  8
0
 10
164.212661
 20
122.155280
 42
0.034622
  0
VERTEX
  8
0
 10
162.717416
 20
126.396733
 42
0.004411
  0
VERTEX
  8
0
 10
158.795960
 20
135.250000
 42
0.000000
  0
VERTEX
  8
0
 10
152.559886
 20
149.000000
 42
0.000000
  0
VERTEX
  8
0
 10
110.229505
 20
149.000000
 42
0.000000
  0
VERTEX
  8
0
 10
67.899123
 20
149.000000
 42
0.000000
  0
SEQEND
  0
POLYLINE
  8
0
 66
1
 70
1
  0
VERTEX
  8
0
 10
158.089349
 20
134.640356
 42
-0.004936
  0
VERTEX
  8
0
 10
161.789887
 20
126.375148
 42
-0.036452
  0
VERTEX
  8
0
 10
163.222173
 20
122.303062
 42
-0.051300
  0
VERTEX
  8
0
 10
163.827100
 20
118.620980
 42
-0.015082
  0
VERTEX
  8
0
 10
164.000000
 20
112.890356
 42
0.000000
  0
VERTEX
  8
0
 10
164.000000
 20
104.000000
 42
0.000000
  0
VERTEX
  8
0
 10
141.000000
 20
104.000000
 42
0.000000
  0
VERTEX
  8
0
 10
118.000000
 20
104.000000
 42
0.000000
  0
VERTEX
  8
0
 10
118.000000
 20
112.545455
 42
0.007491
  0
VERTEX
  8
0
 10
117.924626
 20
117.576411
 42
0.047431
  0
VERTEX
  8
0
 10
117.606383
 20
120.114156
 42
0.085178
  0
VERTEX
  8
0
 10
116.892324
 20
121.853821
 42
0.056551
  0
VERTEX
  8
0
 10
115.545455
 20
123.545455
 42
0.084831
  0
VERTEX
  8
0
 10
113.119439
 20
125.263313
 42
0.105261
  0
VERTEX
  8
0
 10
110.436781
 20
125.911658
 42
0.106723
  0
VERTEX
  8
0
 10
107.751065
 20
125.408337
 42
0.089309
  0
VERTEX
  8
0
 10
105.314451
 20
123.825686
 42
0.067175
  0
VERTEX
  8
0
 10
104.055587
 20
122.276768
 42
0.085440
  0
VERTEX
  8
0
 10
103.377151
 20
120.567500
 42
0.044913
  0
VERTEX
  8
0
 10
103.071820
 20
117.983430
 42
0.006962
  0
VERTEX
  8
0
 10
103.000000
 20
112.825686
 42
0.000000
  0
VERTEX
  8
0
 10
103.000000
 20
104.000000
 42
0.000000
  0
VERTEX
  8
0
 10
80.000000
 20
104.000000
 42
0.000000
  0
VERTEX
  8
0
 10
57.000000
 20
104.000000
 42
0.000000
  0
VERTEX
  8
0
 10
56.985997
 20
113.750000
 42
0.000000
  0
VERTEX
  8
0
 10
56.971993
 20
123.500000
 42
0.000000
  0
VERTEX
  8
0
 10
62.658107
 20
135.760718
 42
0.000000
  0
VERTEX
  8
0
 10
68.344222
 20
148.021436
 42
0.000000
  0
VERTEX
  8
0
 10
110.261460
 20
147.760718
 42
0.000000
  0
VERTEX
  8
0
 10
152.178698
 20
147.500000
 42
0.000000
  0
SEQEND
  0
POLYLINE
  8
0
 66
1
 70
1
  0
VERTEX
  8
0
 10
115.000000
 20
123.000000
 42
-0.080195
  0
VERTEX
  8
0
 10
116.035762
 20
121.565463
 42
-0.069381
  0
VERTEX
  8
0
 10
116.632353
 20
119.805147
 42
-0.038985
  0
VERTEX
  8
0
 10
116.924472
 20
117.167298
 42
-0.008091
  0
VERTEX
  8
0
 10
117.000000
 20
112.500000
 42
0.000000
  0
VERTEX
  8
0
 10
117.000000
 20
104.000000
 42
0.000000
  0
VERTEX
  8
0
 10
110.500000
 20
104.000000
 42
0.000000
  0
VERTEX
  8
0
 10
104.000000
 20
104.000000
 42
0.000000
  0
VERTEX
  8
0
 10
104.000000
 20
112.671259
 42
-0.008846
  0
VERTEX
  8
0
 10
104.077578
 20
117.055827
 42
-0.030246
  0
VERTEX
  8
0
 10
104.350439
 20
119.893635
 42
-0.047774
  0
VERTEX
  8
0
 10
104.848758
 20
121.830596
 42
-0.097376
  0
VERTEX
  8
0
 10
105.654988
 20
123.171259
 42
-0.122185
  0
VERTEX
  8
0
 10
107.625286
 20
124.496394
 42
-0.092066
  0
VERTEX
  8
0
 10
110.209347
 20
124.927446
 42
-0.088959
  0
VERTEX
  8
0
 10
112.856011
 20
124.402570
 42
-0.103409
  0
SEQEND
  0
POLYLINE
  8
0
 66
1
 70
1
  0
VERTEX
  8
0
 10
103.000000
 20
97.079455
 42
-0.008481
  0
VERTEX
  8
0
 10
102.934759
 20
93.233585
 42
-0.106004
  0
VERTEX
  8
0
 10
102.583226
 20
91.828438
 42
-0.188912
  0
VERTEX
  8
0
 10
101.733209
 20
91.050723
 42
-0.038911
  0
VERTEX
  8
0
 10
99.750000
 20
90.459334
 42
0.063545
  0
VERTEX
  8
0
 10
95.556551
 20
88.980963
 42
0.018846
  0
VERTEX
  8
0
 10
89.588416
 20
85.693022
 42
0.018836
  0
VERTEX
  8
0
 10
83.885863
 20
81.965833
 42
0.063766
  0
VERTEX
  8
0
 10
80.619801
 20
78.960006
 42
0.035870
  0
VERTEX
  8
0
 10
77.088154
 20
74.093781
 42
0.026868
  0
VERTEX
  8
0
 10
73.898342
 20
68.287572
 42
0.027302
  0
VERTEX
  8
0
 10
71.426753
 20
62.343408
 42
0.045117
  0
VERTEX
  8
0
 10
70.086372
 20
57.078458
 42
0.036792
  0
VERTEX
  8
0
 10
69.657866
 20
52.082870
 42
0.019470
  0
VERTEX
  8
0
 10
69.825308
 20
45.863878
 42
0.019060
  0
VERTEX
  8
0
 10
70.447849
 20
39.897681
 42
0.055587
  0
VERTEX
  8
0
 10
71.483406
 20
35.894663
 42
-0.234853
  0
VERTEX
  8
0
 10
71.408009
 20
35.120953
 42
-0.064191
  0
VERTEX
  8
0
 10
70.607456
 20
34.144423
 42
-0.043283
  0
VERTEX
  8
0
 10
69.169634
 20
33.006742
 42
-0.017969
  0
VERTEX
  8
0
 10
67.052004
 20
31.717312
 42
0.000000
  0
VERTEX
  8
0
 10
62.088941
 20
28.934625
 42
0.000000
  0
VERTEX
  8
0
 10
60.674322
 20
31.217312
 42
-0.009220
  0
VERTEX
  8
0
 10
59.736044
 20
32.795627
 42
-0.000472
  0
VERTEX
  8
0
 10
56.794133
 20
37.970086
 42
-0.000752
  0
VERTEX
  8
0
 10
53.311788
 20
44.130132
 42
-0.000545
  0
VERTEX
  8
0
 10
49.451654
 20
51.000000
 42
0.001524
  0
VERTEX
  8
0
 10
45.625124
 20
57.778964
 42
0.002305
  0
VERTEX
  8
0
 10
42.249755
 20
63.653125
 42
0.000872
  0
VERTEX
  8
0
 10
39.315816
 20
68.684766
 42
0.055741
  0
VERTEX
  8
0
 10
38.707556
 20
69.500000
 42
0.858638
  0
VERTEX
  8
0
 10
38.426654
 20
69.307595
 42
0.010423
  0
VERTEX
  8
0
 10
40.429089
 20
65.361455
 42
0.005536
  0
VERTEX
  8
0
 10
44.331483
 20
58.243580
 42
0.001239
  0
VERTEX
  8
0
 10
51.149794
 20
46.197287
 42
-0.000769
  0
VERTEX
  8
0
 10
54.926346
 20
39.539672
 42
-0.001255
  0
VERTEX
  8
0
 10
58.106502
 20
33.880188
 42
-0.000128
  0
VERTEX
  8
0
 10
60.935149
 20
28.813495
 42
-0.127922
  0
VERTEX
  8
0
 10
61.000000
 20
28.564163
 42
-0.251550
  0
VERTEX
  8
0
 10
60.894261
 20
28.367288
 42
-0.001811
  0
VERTEX
  8
0
 10
59.277255
 20
27.304576
 42
-0.006247
  0
VERTEX
  8
0
 10
57.383595
 20
26.103290
 42
-0.003892
  0
VERTEX
  8
0
 10
55.135336
 20
24.740189
 42
0.000000
  0
VERTEX
  8
0
 10
49.270672
 20
21.246626
 42
0.000000
  0
VERTEX
  8
0
 10
37.385336
 20
41.295720
 42
-0.000442
  0
VERTEX
  8
0
 10
32.807914
 20
49.032864
 42
-0.000703
  0
VERTEX
  8
0
 10
28.904383
 20
55.665553
 42
-0.000139
  0
VERTEX
  8
0
 10
25.474329
 20
61.516243
 42
-0.034452
  0
VERTEX
  8
0
 10
25.204052
 20
62.060252
 42
-0.353454
  0
VERTEX
  8
0
 10
25.332086
 20
62.493620
 42
-0.003515
  0
VERTEX
  8
0
 10
28.187272
 20
64.434413
 42
-0.009374
  0
VERTEX
  8
0
 10
31.630029
 20
66.647063
 42
-0.005707
  0
VERTEX
  8
0
 10
35.775281
 20
69.137845
 42
0.000000
  0
VERTEX
  8
0
 10
46.642458
 20
75.500000
 42
0.000000
  0
VERTEX
  8
0
 10
51.821229
 20
84.929197
 42
0.009142
  0
VERTEX
  8
0
 10
54.377350
 20
89.791854
 42
0.026376
  0
VERTEX
  8
0
 10
55.904789
 20
93.278066
 42
0.037602
  0
VERTEX
  8
0
 10
56.726502
 20
96.082395
 42
0.052515
  0
VERTEX
  8
0
 10
57.000000
 20
98.679197
 42
0.000000
  0
VERTEX
  8
0
 10
57.000000
 20
103.000000
 42
0.000000
  0
VERTEX
  8
0
 10
80.000000
 20
103.000000
 42
0.000000
  0
VERTEX
  8
0
 10
103.000000
 20
103.000000
 42
0.000000
  0
SEQEND
  0
POLYLINE
  8
0
 66
1
 70
1
  0
VERTEX
  8
0
 10
164.000000
 20
97.982653
 42
0.091564
  0
VERTEX
  8
0
 10
165.130996
 20
91.858436
 42
0.036687
  0
VERTEX
  8
0
 10
168.764227
 20
84.112398
 42
0.036522
  0
VERTEX
  8
0
 10
173.449480
 20
77.037494
 42
0.100543
  0
VERTEX
  8
0
 10
177.955750
 20
73.145026
 42
-0.015704
  0
VERTEX
  8
0
 10
179.489346
 20
72.218561
 42
-0.025718
  0
VERTEX
  8
0
 10
180.718853
 20
71.329119
 42
-0.023510
  0
VERTEX
  8
0
 10
181.588423
 20
70.559182
 42
-0.341790
  0
VERTEX
  8
0
 10
181.642309
 20
70.177893
 42
0.001442
  0
VERTEX
  8
0
 10
173.145736
 20
55.178868
 42
0.002138
  0
VERTEX
  8
0
 10
165.794642
 20
41.982584
 42
0.000180
  0
VERTEX
  8
0
 10
159.134370
 20
29.894981
 42
0.333791
  0
VERTEX
  8
0
 10
159.194403
 20
29.472263
 42
0.489620
  0
VERTEX
  8
0
 10
159.426231
 20
29.501446
 42
0.000437
  0
VERTEX
  8
0
 10
162.659030
 20
34.967641
 42
0.003231
  0
VERTEX
  8
0
 10
166.279322
 20
41.192797
 42
0.001921
  0
VERTEX
  8
0
 10
170.515686
 20
48.653121
 42
-0.000191
  0
VERTEX
  8
0
 10
174.772776
 20
56.210693
 42
-0.000294
  0
VERTEX
  8
0
 10
178.465075
 20
62.750733
 42
-0.000093
  0
VERTEX
  8
0
 10
181.670128
 20
68.417468
 42
-0.008610
  0
VERTEX
  8
0
 10
182.152655
 20
69.236982
 42
-0.321148
  0
VERTEX
  8
0
 10
182.773889
 20
69.499597
 42
-0.035782
  0
VERTEX
  8
0
 10
184.332906
 20
69.029143
 42
-0.029071
  0
VERTEX
  8
0
 10
186.485536
 20
68.060773
 42
-0.012111
  0
VERTEX
  8
0
 10
189.274096
 20
66.518936
 42
0.000000
  0
VERTEX
  8
0
 10
195.742883
 20
62.734854
 42
0.000000
  0
VERTEX
  8
0
 10
183.621442
 20
42.398355
 42
-0.002381
  0
VERTEX
  8
0
 10
178.922422
 20
34.599353
 42
-0.003871
  0
VERTEX
  8
0
 10
174.849373
 20
28.026618
 42
-0.000720
  0
VERTEX
  8
0
 10
171.216712
 20
22.283014
 42
-0.245361
  0
VERTEX
  8
0
 10
170.780679
 20
22.030928
 42
-0.139615
  0
VERTEX
  8
0
 10
169.946676
 20
22.230139
 42
-0.000760
  0
VERTEX
  8
0
 10
162.688335
 20
26.322853
 42
-0.003765
  0
VERTEX
  8
0
 10
155.729510
 20
30.330118
 42
-0.007091
  0
VERTEX
  8
0
 10
150.183079
 20
33.686467
 42
-0.035580
  0
VERTEX
  8
0
 10
149.201729
 20
34.401232
 42
-0.096463
  0
VERTEX
  8
0
 10
148.664250
 20
35.068834
 42
-0.150272
  0
VERTEX
  8
0
 10
148.544087
 20
35.703237
 42
-0.139537
  0
VERTEX
  8
0
 10
148.795191
 20
36.316902
 42
0.130128
  0
VERTEX
  8
0
 10
150.420114
 20
40.087626
 42
0.029011
  0
VERTEX
  8
0
 10
151.056534
 20
47.133782
 42
0.030573
  0
VERTEX
  8
0
 10
150.830201
 20
54.921573
 42
0.043648
  0
VERTEX
  8
0
 10
149.610355
 20
61.724726
 42
0.064584
  0
VERTEX
  8
0
 10
145.870623
 20
70.729005
 42
0.057348
  0
VERTEX
  8
0
 10
139.832300
 20
78.886510
 42
0.058147
  0
VERTEX
  8
0
 10
132.196291
 20
85.355561
 42
0.070899
  0
VERTEX
  8
0
 10
123.750000
 20
89.384961
 42
0.000000
  0
VERTEX
  8
0
 10
118.000000
 20
91.186144
 42
0.000000
  0
VERTEX
  8
0
 10
118.000000
 20
97.093072
 42
0.000000
  0
VERTEX
  8
0
 10
118.000000
 20
103.000000
 42
0.000000
  0
VERTEX
  8
0
 10
141.000000
 20
103.000000
 42
0.000000
  0
VERTEX
  8
0
 10
164.000000
 20
103.000000
 42
0.000000
  0
SEQEND
  0
POLYLINE
  8
0
 66
1
 70
1
  0
VERTEX
  8
0
 10
105.556704
 20
55.777494
 42
0.033253
  0
VERTEX
  8
0
 10
104.960809
 20
54.793528
 42
0.027472
  0
VERTEX
  8
0
 10
104.457282
 20
53.675375
 42
0.028327
  0
VERTEX
  8
0
 10
104.109216
 20
52.594557
 42
0.063815
  0
VERTEX
  8
0
 10
104.000000
 20
51.742310
 42
0.102424
  0
VERTEX
  8
0
 10
104.464646
 20
49.497865
 42
0.068664
  0
VERTEX
  8
0
 10
105.828681
 20
47.249853
 42
0.071902
  0
VERTEX
  8
0
 10
107.655881
 20
45.565498
 42
0.151438
  0
VERTEX
  8
0
 10
109.480151
 20
45.000000
 42
0.111686
  0
VERTEX
  8
0
 10
111.956802
 20
45.560202
 42
0.068452
  0
VERTEX
  8
0
 10
114.469222
 20
47.211978
 42
0.070402
  0
VERTEX
  8
0
 10
116.364232
 20
49.408040
 42
0.143822
  0
VERTEX
  8
0
 10
117.000000
 20
51.572580
 42
0.169788
  0
VERTEX
  8
0
 10
115.758519
 20
55.123158
 42
0.137333
  0
VERTEX
  8
0
 10
112.465114
 20
57.499801
 42
0.143554
  0
VERTEX
  8
0
 10
108.529839
 20
57.763787
 42
0.187555
  0
SEQEND
  0
POLYLINE
  8
0
 66
1
 70
1
  0
VERTEX
  8
0
 10
114.428571
 20
55.428571
 42
-0.165103
  0
VERTEX
  8
0
 10
115.816081
 20
52.614949
 42
-0.151394
  0
VERTEX
  8
0
 10
115.269580
 20
49.423906
 42
-0.139981
  0
VERTEX
  8
0
 10
112.948875
 20
46.924172
 42
-0.136938
  0
VERTEX
  8
0
 10
109.637736
 20
46.000000
 42
-0.169264
  0
VERTEX
  8
0
 10
107.270578
 20
46.824986
 42
-0.131208
  0
VERTEX
  8
0
 10
105.631328
 20
49.030480
 42
-0.112960
  0
VERTEX
  8
0
 10
105.164182
 20
52.054224
 42
-0.105315
  0
VERTEX
  8
0
 10
106.035184
 20
55.065741
 42
-0.167154
  0
VERTEX
  8
0
 10
107.493074
 20
56.418890
 42
-0.093700
  0
VERTEX
  8
0
 10
109.873591
 20
56.976411
 42
-0.087759
  0
VERTEX
  8
0
 10
112.442753
 20
56.635642
 42
-0.120189
  0
SEQEND
  0
POLYLINE
  8
0
 66
1
 70
1
  0
VERTEX
  8
0
 10
20.550323
 20
27.641232
 42
0.081606
  0
VERTEX
  8
0
 10
18.528196
 20
24.823968
 42
0.150200
  0
VERTEX
  8
0
 10
18.078452
 20
22.063876
 42
0.153803
  0
VERTEX
  8
0
 10
19.256764
 20
19.573024
 42
0.086835
  0
VERTEX
  8
0
 10
21.940546
 20
17.530745
 42
0.141251
  0
VERTEX
  8
0
 10
25.308494
 20
16.859923
 42
0.141305
  0
VERTEX
  8
0
 10
28.516191
 20
18.084884
 42
0.145785
  0
VERTEX
  8
0
 10
30.512739
 20
20.790522
 42
0.152590
  0
VERTEX
  8
0
 10
30.656094
 20
24.095223
 42
0.031058
  0
VERTEX
  8
0
 10
29.878517
 20
26.429214
 42
0.087162
  0
VERTEX
  8
0
 10
28.970409
 20
27.885526
 42
0.099749
  0
VERTEX
  8
0
 10
27.698905
 20
28.833214
 42
0.048979
  0
VERTEX
  8
0
 10
25.790306
 20
29.516494
 42
0.054795
  0
VERTEX
  8
0
 10
24.337707
 20
29.715903
 42
0.092921
  0
VERTEX
  8
0
 10
23.129530
 20
29.522954
 42
0.079381
  0
VERTEX
  8
0
 10
21.947435
 20
28.873942
 42
0.031227
  0
SEQEND
  0
POLYLINE
  8
0
 66
1
 70
1
  0
VERTEX
  8
0
 10
28.060577
 20
26.939423
 42
-0.168386
  0
VERTEX
  8
0
 10
29.695675
 20
23.569629
 42
-0.171744
  0
VERTEX
  8
0
 10
28.876745
 20
19.942528
 42
-0.186959
  0
VERTEX
  8
0
 10
26.045063
 20
17.838974
 42
-0.190603
  0
VERTEX
  8
0
 10
22.563328
 20
18.214424
 42
-0.083089
  0
VERTEX
  8
0
 10
20.172649
 20
20.031466
 42
-0.145768
  0
VERTEX
  8
0
 10
19.066354
 20
22.233313
 42
-0.150781
  0
VERTEX
  8
0
 10
19.362791
 20
24.627102
 42
-0.090970
  0
VERTEX
  8
0
 10
21.000000
 20
27.000000
 42
-0.060674
  0
VERTEX
  8
0
 10
22.834384
 20
28.436055
 42
-0.138775
  0
VERTEX
  8
0
 10
24.513763
 20
28.895796
 42
-0.136830
  0
VERTEX
  8
0
 10
26.200842
 20
28.409662
 42
-0.058285
  0
SEQEND
  0
POLYLINE
  8
0
 66
1
 70
1
  0
VERTEX
  8
0
 10
192.223467
 20
27.737870
 42
0.089566
  0
VERTEX
  8
0
 10
190.459445
 20
25.018989
 42
0.112726
  0
VERTEX
  8
0
 10
189.946011
 20
22.069992
 42
0.127687
  0
VERTEX
  8
0
 10
190.771482
 20
19.458249
 42
0.135381
  0
VERTEX
  8
0
 10
192.750000
 20
17.646068
 42
0.081480
  0
VERTEX
  8
0
 10
195.136601
 20
16.882045
 42
0.106143
  0
VERTEX
  8
0
 10
197.419813
 20
17.028996
 42
0.101737
  0
VERTEX
  8
0
 10
199.512024
 20
18.114355
 42
0.069728
  0
VERTEX
  8
0
 10
201.341582
 20
20.077289
 42
0.035388
  0
VERTEX
  8
0
 10
202.156911
 20
21.436641
 42
0.118883
  0
VERTEX
  8
0
 10
202.394730
 20
22.439388
 42
0.097437
  0
VERTEX
  8
0
 10
202.171579
 20
23.551345
 42
0.019463
  0
VERTEX
  8
0
 10
201.321404
 20
25.399094
 42
0.000936
  0
VERTEX
  8
0
 10
200.708457
 20
26.599731
 42
0.001431
  0
VERTEX
  8
0
 10
200.171844
 20
27.638669
 42
0.000487
  0
VERTEX
  8
0
 10
199.704715
 20
28.534639
 42
0.038917
  0
VERTEX
  8
0
 10
199.620774
 20
28.668716
 42
0.157964
  0
VERTEX
  8
0
 10
199.501752
 20
28.753741
 42
0.003226
  0
VERTEX
  8
0
 10
198.791015
 20
28.973994
 42
0.007260
  0
VERTEX
  8
0
 10
197.947932
 20
29.216004
 42
0.004778
  0
VERTEX
  8
0
 10
196.971418
 20
29.471038
 42
0.059016
  0
VERTEX
  8
0
 10
195.649247
 20
29.641220
 42
0.090274
  0
VERTEX
  8
0
 10
194.512990
 20
29.446238
 42
0.079710
  0
VERTEX
  8
0
 10
193.421391
 20
28.836946
 42
0.037125
  0
SEQEND
  0
POLYLINE
  8
0
 66
1
 70
1
  0
VERTEX
  8
0
 10
197.455198
 20
28.378819
 42
-0.127949
  0
VERTEX
  8
0
 10
199.172326
 20
27.150554
 42
-0.071054
  0
VERTEX
  8
0
 10
200.534486
 20
24.946118
 42
-0.072839
  0
VERTEX
  8
0
 10
201.195259
 20
22.522780
 42
-0.159068
  0
VERTEX
  8
0
 10
200.826969
 20
20.655294
 42
-0.102523
  0
VERTEX
  8
0
 10
199.467002
 20
19.087517
 42
-0.087738
  0
VERTEX
  8
0
 10
197.521691
 20
18.082420
 42
-0.086614
  0
VERTEX
  8
0
 10
195.326256
 20
17.797459
 42
-0.096242
  0
VERTEX
  8
0
 10
193.250000
 20
18.295913
 42
-0.164404
  0
VERTEX
  8
0
 10
191.683420
 20
19.765313
 42
-0.106541
  0
VERTEX
  8
0
 10
190.992398
 20
22.175467
 42
-0.095782
  0
VERTEX
  8
0
 10
191.330328
 20
24.885831
 42
-0.105525
  0
VERTEX
  8
0
 10
192.654988
 20
27.171259
 42
-0.029406
  0
VERTEX
  8
0
 10
193.891209
 20
28.385521
 42
-0.118346
  0
VERTEX
  8
0
 10
194.822506
 20
28.872789
 42
-0.121821
  0
VERTEX
  8
0
 10
195.858650
 20
28.876936
 42
-0.032002
  0
SEQEND
  0
POLYLINE
  8
0
 66
1
 70
1
  0
VERTEX
  8
0
 10
88.222506
 20
131.443296
 42
0.110001
  0
VERTEX
  8
0
 10
86.486373
 20
129.544443
 42
0.156421
  0
VERTEX
  8
0
 10
86.010392
 20
127.324521
 42
0.150413
  0
VERTEX
  8
0
 10
86.912158
 20
125.177887
 42
0.099643
  0
VERTEX
  8
0
 10
89.013034
 20
123.493260
 42
0.022824
  0
VERTEX
  8
0
 10
90.902242
 20
122.623146
 42
0.140414
  0
VERTEX
  8
0
 10
91.956481
 20
122.509946
 42
0.134026
  0
VERTEX
  8
0
 10
92.935319
 20
122.968973
 42
0.020111
  0
VERTEX
  8
0
 10
94.545455
 20
124.454545
 42
0.020111
  0
VERTEX
  8
0
 10
96.031027
 20
126.064681
 42
0.134026
  0
VERTEX
  8
0
 10
96.490054
 20
127.043519
 42
0.140414
  0
VERTEX
  8
0
 10
96.376854
 20
128.097758
 42
0.022824
  0
VERTEX
  8
0
 10
95.506740
 20
129.986966
 42
0.072439
  0
VERTEX
  8
0
 10
94.096364
 20
131.954722
 42
0.152918
  0
VERTEX
  8
0
 10
92.465888
 20
132.847175
 42
0.142855
  0
VERTEX
  8
0
 10
90.537619
 20
132.680034
 42
0.060262
  0
SEQEND
  0
POLYLINE
  8
0
 66
1
 70
1
  0
VERTEX
  8
0
 10
94.824757
 20
129.485272
 42
-0.036692
  0
VERTEX
  8
0
 10
95.347439
 20
128.071731
 42
-0.116187
  0
VERTEX
  8
0
 10
95.397019
 20
127.070695
 42
-0.115433
  0
VERTEX
  8
0
 10
94.994558
 20
126.148999
 42
-0.035978
  0
VERTEX
  8
0
 10
94.000000
 20
125.000000
 42
-0.035978
  0
VERTEX
  8
0
 10
92.851001
 20
124.005442
 42
-0.115433
  0
VERTEX
  8
0
 10
91.929305
 20
123.602981
 42
-0.116187
  0
VERTEX
  8
0
 10
90.928269
 20
123.652561
 42
-0.036692
  0
VERTEX
  8
0
 10
89.514728
 20
124.175243
 42
-0.165979
  0
VERTEX
  8
0
 10
87.426530
 20
126.146052
 42
-0.203856
  0
VERTEX
  8
0
 10
87.205770
 20
128.794875
 42
-0.177239
  0
VERTEX
  8
0
 10
89.005836
 20
131.067489
 42
-0.133522
  0
VERTEX
  8
0
 10
92.089485
 20
131.969591
 42
-0.130905
  0
VERTEX
  8
0
 10
92.781547
 20
131.799351
 42
-0.059025
  0
VERTEX
  8
0
 10
93.548634
 20
131.252366
 42
-0.052671
  0
VERTEX
  8
0
 10
94.268588
 20
130.444946
 42
-0.048895
  0
SEQEND
  0
POLYLINE
  8
0
 66
1
 70
1
  0
VERTEX
  8
0
 10
126.222506
 20
131.443296
 42
0.110001
  0
VERTEX
  8
0
 10
124.486373
 20
129.544443
 42
0.156421
  0
VERTEX
  8
0
 10
124.010392
 20
127.324521
 42
0.150413
  0
VERTEX
  8
0
 10
124.912158
 20
125.177887
 42
0.099643
  0
VERTEX
  8
0
 10
127.013034
 20
123.493260
 42
0.022824
  0
VERTEX
  8
0
 10
128.902242
 20
122.623146
 42
0.140414
  0
VERTEX
  8
0
 10
129.956481
 20
122.509946
 42
0.134026
  0
VERTEX
  8
0
 10
130.935319
 20
122.968973
 42
0.020111
  0
VERTEX
  8
0
 10
132.545455
 20
124.454545
 42
0.020111
  0
VERTEX
  8
0
 10
134.031027
 20
126.064681
 42
0.134026
  0
VERTEX
  8
0
 10
134.490054
 20
127.043519
 42
0.140414
  0
VERTEX
  8
0
 10
134.376854
 20
128.097758
 42
0.022824
  0
VERTEX
  8
0
 10
133.506740
 20
129.986966
 42
0.072439
  0
VERTEX
  8
0
 10
132.096364
 20
131.954722
 42
0.152918
  0
VERTEX
  8
0
 10
130.465888
 20
132.847175
 42
0.142855
  0
VERTEX
  8
0
 10
128.537619
 20
132.680034
 42
0.060262
  0
SEQEND
  0
POLYLINE
  8
0
 66
1
 70
1
  0
VERTEX
  8
0
 10
132.824757
 20
129.485272
 42
-0.036692
  0
VERTEX
  8
0
 10
133.347439
 20
128.071731
 42
-0.116187
  0
VERTEX
  8
0
 10
133.397019
 20
127.070695
 42
-0.115433
  0
VERTEX
  8
0
 10
132.994558
 20
126.148999
 42
-0.035978
  0
VERTEX
  8
0
 10
132.000000
 20
125.000000
 42
-0.035978
  0
VERTEX
  8
0
 10
130.851001
 20
124.005442
 42
-0.115433
  0
VERTEX
  8
0
 10
129.929305
 20
123.602981
 42
-0.116187
  0
VERTEX
  8
0
 10
128.928269
 20
123.652561
 42
-0.036692
  0
VERTEX
  8
0
 10
127.514728
 20
124.175243
 42
-0.165979
  0
VERTEX
  8
0
 10
125.426530
 20
126.146052
 42
-0.203856
  0
VERTEX
  8
0
 10
125.205770
 20
128.794875
 42
-0.177239
  0
VERTEX
  8
0
 10
127.005836
 20
131.067489
 42
-0.133522
  0
VERTEX
  8
0
 10
130.089485
 20
131.969591
 42
-0.130905
  0
VERTEX
  8
0
 10
130.781547
 20
131.799351
 42
-0.059025
  0
VERTEX
  8
0
 10
131.548634
 20
131.252366
 42
-0.052671
  0
VERTEX
  8
0
 10
132.268588
 20
130.444946
 42
-0.048895
  0
SEQEND
  0
ENDSEC
  0
EOF
